» » »

The Adams Family Theme Song Tabs (ver.1)

Artists:  A B C D E F G H I J K L M N O P Q R S T U V W X Y Z # 

The Adams Family Theme Song Tabs (ver.1)

Theme Songs
Rating:
0/5 (0 votes)

Hard to play? Try these video lessons and learn fast.
                Standard Tuning
|--------------------------------------------------------|
|--------------------------------------------------------|
|--------------------------------------------------------|
|---------x-x--------0-x-x--------0-------0----------x-x-|
|---0-2-3-x-x----0-2---x-x----0-2-----0-2------0-2-3-x-x-|
|-3-------x-x--3-------x-x--3-------3--------3-------x-x-|

|--------------------------------------------------------|
|--------------------------------------------------------|
|--------------------------------------------------------|
|---------x-x--------0-x-x--------0-------0----------x-x-|
|---0-2-3-x-x----0-2---x-x----0-2-----0-2------0-2-3-x-x-|
|-3-------x-x--3-------x-x--3-------3--------3-------x-x-|


|-----2-------0-|-----0---------|-----2-------0-|----------------|
|---3---3---2---|---2---2-----3-|---3---3---2---|-2-2---0-2-3----|
|-2-------2-----|-2-------2-----|-2-------2-----|-----2----------|
|---------------|-----------4---|---------------|-------------x-x|
|---------------|---------------|---------------|-------------x-x|
|---------------|---------------|---------------|-------------x-x|

|--------------------------------------------------------|
|--------------------------------------------------------|
|--------------------------------------------------------|
|---------x-x--------0-x-x--------0-------0----------x-x-|
|---0-2-3-x-x----0-2---x-x----0-2-----0-2------0-2-3-x-x-|
|-3-------x-x--3-------x-x--3-------3--------3-------x-x-|


|-----2-------0-|-----0---------|-----2-------0-|----------------|
|---3---3---2---|---2---2-----3-|---3---3---2---|-2-2---0-2-3----|
|-2-------2-----|-2-------2-----|-2-------2-----|-----2----------|
|---------------|-----------4---|---------------|-------------x-x|
|---------------|---------------|---------------|-------------x-x|
|---------------|---------------|---------------|-------------x-x|
            
Hard to play? Try these video lessons and learn fast. | Correct




comments powered by Disqus
↑ Back to top | Tablatures and chords are parodies/interpretations of the original songs. You may use it for private study, scholarship, research or language learning purposes only