» » »

Teenage Mutant Ninja Turtles Bass tabs (ver.1)

Artists:  A B C D E F G H I J K L M N O P Q R S T U V W X Y Z # 

Teenage Mutant Ninja Turtles Bass tabs (ver.1)

Theme Songs
Rating:
0/5 (0 votes)

Hard to play? Try these video lessons and learn fast.
                (1)
Main Riff (repeat as many times as you want)
G-----------------------------------------3-5-3-5-3-5-3-5--
D---------------------3-5-3-5-3-5-3-5----------------------
A-3-5-3-5-3-5-3-5------------------------------------------
E--------------------------------------------------------------

Ending (turtle in a half shell…)
G-------------------------------------------------------------
D-------------------------------------------------------------
A-5555-3-5-5555------------------------------------------
E-------------------------------------------------------------

Well that’s about it have fun and remember a bass player who uses a pick has weak fingers…

Please rate this tab it is accurate

Id like to thank Jake R. for teaching me this tab Ninja Turtles Rule

P.S. this also works for guitar just play in the same order of strings

Peace, Love, Empathy

WorldsFinestBassplayer
            
Hard to play? Try these video lessons and learn fast. | Correct




comments powered by Disqus
↑ Back to top | Tablatures and chords are parodies/interpretations of the original songs. You may use it for private study, scholarship, research or language learning purposes only