» » »

Theme Songs, Super Mario Brothers - World 1-1 Bass tabs (ver.1)

Artists:  A B C D E F G H I J K L M N O P Q R S T U V W X Y Z # 

Super Mario Brothers - World 1-1 Bass tabs (ver.1)

Theme Songs Tabs
Rating:
0/5 (0 votes)
Super Mario Brothers - World 1-1 lessons Tabs too difficult? Try these video lessons and learn fast
                ----------------------------------------
--- Super Mario Brothers - World 1-1 ---
----------------------------------------

Here goes another one.....

nice and simple lines.

Have fun....

--------------------
--- INTRO --- 1X ---
--------------------

   
G--|---------------|
D--|-2-2-2---2-5---|
A--|-------3-------|
E--|-------------3-|




--------------------
--- PART1 --- 2X ---
--------------------


G--|---------------------2-------------|
D--|-------------------2---3-5-2-------|
A--|-3-----0-2-0-----3-----------3-5-2-|
E--|---3-0-------4-3-------------------|




------------------------
--- BRIDGE :) --- 1X ---
------------------------

strike this note softly

G--|---|
D--|---|
A--|-3-|
E--|---|




--------------------
--- PART2 --- 2X ---
--------------------


G--|-------------------------5-55--------------------------|
D--|-543------------543------5-55---543--------------8-7-5-|
A--|----6-7---3--35----6-7-------------6-7---3--35---6-5-3-|
E--|--------45--5--------------------------45--5-----------|




--------------------
--- PART3 --- 1X ---
--------------------


G--|-----------------------------------------|
D--|-----------------------------------------|
A--|-33-3-35-73----33-3-35-7---33-3-35-73----|
E--|------------53------------------------53-|




--------------------
--- OUTRO --- 1X ---
--------------------

   
G--|---------------|
D--|-2-2-2---2-5---|
A--|-------3-------|
E--|-------------3-|

Start again at part1 and loop it forever (and ever let´s make this last forever....)

Did I already mention that Koji Kondo is a genious ??

---------------------
--- The Lost Part ---
---------------------

It´s 100% right but this part is out of Super Mario All Stars (SNES) and I´ve tabbed the old NES Version

G-----------------------------------
D--2-----------3--3-----------------
A-----3-----0--------0--------------
E-----3-4---------------------------

G-----------------------------------
D-----7--7-7--5--3-2----------------
A--3-----------------3--0-----------
E--------------------------3--------

G-----------------------------------
D--2-----------3--3-----------------
A-----3-----0--------0--------------
E-----3-4---------------------------

G-----------------------------------
D----3--3-3--2-0--------------------
A--0---------------3----------------
E-----------------------------------


Does anyone know the order of the SNES Version?

This tab is 100% correct.
If you cannot get the timing, just write me an e-mail.
I´ll send you the wav-file of this song !!!! (I´m a nice guy, right?)



Other tabs:
Super Mario Brothers - Secret Room
The Legend of Zelda - The Hyrule Song
Super Mario Kart - Title
            

comments powered by Disqus
↑ Back to top | Theme Songs Bass for Super Mario Brothers - World 1-1. Lyrics for acoustic guitar and electric guitar. Tablatures and chords are parodies/interpretations of the original songs. You may use it for private study, scholarship, research or language learning purposes only