» » »

Star War Them Bass tabs (ver.1)

Artists:  A B C D E F G H I J K L M N O P Q R S T U V W X Y Z # 

Star War Them Bass tabs (ver.1)

Theme Songs
Rating:
0/5 (0 votes)

Hard to play? Try these video lessons and learn fast.
                Normal Tuning (B,E,A,D,G,)

B|-----------------------------------------|
E|-----------------------------------------|
A|--4--------------------------------------|
D|------4-3-1--------4-3-1--------4-3-4-1--|
G|----1--------6--1---------6--1-----------|

B|-----------------------------------------|
E|-----------------------------------------|
A|--4--------------------------------------|
D|------4-3-1--------4-3-1--------4-3-4-1--|
G|----1--------6--1---------6--1-----------|

B|-----------------------------------------|
E|-----------------------------------------|
A|--4--------------------------------------|
D|------4-3-1--------4-3-1--------4-3-4-1--|
G|----1--------6--1---------6--1-----------|
              _______
             |       |
             |       |
 ____________|       |____________
|                                 |
|             iNFeCTeD            |
|____________         ____________|
             |       |
             |       |
             |       |
             |       |
             |       |
             |       |
             |       |
             |       |
             |_______|
            
Hard to play? Try these video lessons and learn fast. | Correct




comments powered by Disqus
↑ Back to top | Tablatures and chords are parodies/interpretations of the original songs. You may use it for private study, scholarship, research or language learning purposes only