» » »

Star Wars The Darth Maul Battle Scene Tabs (ver.1)

Artists:  A B C D E F G H I J K L M N O P Q R S T U V W X Y Z # 

Star Wars The Darth Maul Battle Scene Tabs (ver.1)

Theme Songs
Rating:
0/5 (0 votes)

Hard to play? Try these video lessons and learn fast.
                e---0-2--3----5-7--5--3--2--0----------------
B--------------------------------------------
G--------------------------------------------
D--------------------------------------------
A--------------------------------------------
E--------------------------------------------


e---0-2--3----5-7--5--3--2--0----------------
B--------------------------------------------
G--------------------------------------------
D--------------------------------------------
A--------------------------------------------
E--------------------------------------------


e---0-2--3----5-7--5--3--2--0----------------
B--------------------------------------------
G--------------------------------------------
D--------------------------------------------
A--------------------------------------------
E--------------------------------------------

e---0-2--3----5-7--5--3--2--0----------------
B--------------------------------------------
G--------------------------------------------
D--------------------------------------------
A--------------------------------------------
E--------------------------------------------

it can be played on whaterver string you like
            
Hard to play? Try these video lessons and learn fast. | Correct




comments powered by Disqus
↑ Back to top | Tablatures and chords are parodies/interpretations of the original songs. You may use it for private study, scholarship, research or language learning purposes only