>
 >
Star Spangled Bannor

Star Spangled Bannor Bass Tabs

Theme Songs - Star Spangled Bannor chords, tabs, tablatures, lyrics

Guitar lessons | Add/correct | Request | Top 50 tabs Artists:  A B C D E F G H I J K L M N O P Q R S T U V W X Y Z 0-9

Star Spangled Bannor Bass Tabs – Theme Songs

CD, Sheet music, Poster

Do you like Star Spangled Bannor? Share with your friends now
Bass Tabs
Our Nations Anthem. A Must Know.

*-* = Let Note Ring
2/4 = Slide Up
4\2 = Slide Down

G|----------*0*--2/4--20----------
D|-0-------0--------------------0--
A|---2---2----------------2--4-----
E|-----3---------------------------

G|-------2/4--2--0------------0--0---------
D|-0--0------------*4*--2--4--------0------
A|------------------------------------2----
E|--------------------------------------3-

G|----------*0*--2/4--20----------
D|-0-------0--------------------0--
A|---2---2----------------2--4-----
E|-----3---------------------------

G|-------2/4--2--0------------0--0---------
D|-0--0------------*4*--2--4--------0------
A|------------------------------------2----
E|--------------------------------------3-

G|-4--4--4--5--7-*7*--5--4--2--4--5-*5*--
D|---------------------------------------
A|---------------------------------------
E|---------------------------------------

G|-5--4--2--0---------------------------
D|------------*4*--2--4--5--5-----------
A|-----------------------------2--4-*5*-
E|--------------------------------------

G|-------0--2--4--5/7--0--2--4--5--2-*0*---
D|-0--0------------------------------------
A|-----------------------------------------
E|-----------------------------------------





Comments


Popular Theme Songs tabs & chords
2 Guys And A Girl Bass Tabs
Addams Family Bass Tabs
Europe Anthem Bass Tabs
Happy Birthday 2 Bass Tabs
Shin Tenchi - Yamerarenai Yamerarenai Bass Tabs
The Simpsons 2 Bass Tabs
This Old Man 1 Bass Tabs
Mission Impossible Rock Tabs
Simpsons Tabs
Zelda Main Theme Tabs


Song lyrics



↑ Back to top | Tablatures and chords are parodies/interpretations of the original songs. You may use it for private study, scholarship, research or language learning purposes only
© 2014 AZChords.com Contact us | Privacy policy | DMCA | Add/correct tabs | Request tabs | Top 50 tabs