» » »

Star Spangled Bannor Bass tabs (ver.1)

Artists:  A B C D E F G H I J K L M N O P Q R S T U V W X Y Z # 

Star Spangled Bannor Bass tabs (ver.1)

Theme Songs
Rating:
0/5 (0 votes)

Hard to play? Try these video lessons and learn fast.
                Our Nations Anthem. A Must Know.

*-* = Let Note Ring
2/4 = Slide Up
4\2 = Slide Down

G|----------*0*--2/4--2—0----------
D|-0-------0--------------------0--
A|---2---2----------------2--4-----
E|-----3---------------------------

G|-------2/4--2--0------------0--0---------
D|-0--0------------*4*--2--4--------0------
A|------------------------------------2----
E|--------------------------------------3—-

G|----------*0*--2/4--2—0----------
D|-0-------0--------------------0--
A|---2---2----------------2--4-----
E|-----3---------------------------

G|-------2/4--2--0------------0--0---------
D|-0--0------------*4*--2--4--------0------
A|------------------------------------2----
E|--------------------------------------3—-

G|-4--4--4--5--7-*7*--5--4--2--4--5-*5*--
D|---------------------------------------
A|---------------------------------------
E|---------------------------------------

G|-5--4--2--0---------------------------
D|------------*4*--2--4--5--5-----------
A|-----------------------------2--4-*5*-
E|--------------------------------------

G|-------0--2--4--5/7--0--2--4--5--2-*0*---
D|-0--0------------------------------------
A|-----------------------------------------
E|-----------------------------------------
            
Hard to play? Try these video lessons and learn fast. | Correct




comments powered by Disqus
↑ Back to top | Tablatures and chords are parodies/interpretations of the original songs. You may use it for private study, scholarship, research or language learning purposes only