» » »

Sports Center Bass tabs (ver.1)

Artists:  A B C D E F G H I J K L M N O P Q R S T U V W X Y Z # 

Sports Center Bass tabs (ver.1)

Theme Songs
Rating:
0/5 (0 votes)

Hard to play? Try these video lessons and learn fast.
                (Theme)
Gb|---------------------------------------------------------------------
Db|---------------------------------------------------------------------
Ab|---1-3-3-3--1-3-3-3--3--3--1-3-3-3--1-3-3-3--1-3-3-3--3--3--1-3-3-3--  
Eb|---------------------------------------------------------------------

Ed|--------------------------------
Dd|--------------------------------
Ad|-1-3-3-3--1-3-3-3--3-3--1-3-3-3-
Ed|--------------------------------

Gb|------------------------------
Db|------------------------------
Ab|------------------------------  x2
Eb|-0-0--0--0-0--0--0-0-0-0-0-0--

Gb|----------------------------------------------------------------------------
Db|----------------------------------------------------------------------------
Ab|-4-4-4-4-4-4-4-----------------------4-4-4-4-4-4-4--------------------------  x2
Eb|--------------------5-5-5-5-5-5-5-5---------------------5-5-5-5-5-5-5-5------

Gb|------------------------------------------
Db|------------------------------------------
Ab|-5-3-5------5-3-5-------------------------  x2
Eb|------------------------------------------
            
Hard to play? Try these video lessons and learn fast. | Correct




comments powered by Disqus
↑ Back to top | Tablatures and chords are parodies/interpretations of the original songs. You may use it for private study, scholarship, research or language learning purposes only