» » »

Spiderman Bass tabs (ver.1)

Artists:  A B C D E F G H I J K L M N O P Q R S T U V W X Y Z # 

Spiderman Bass tabs (ver.1)

Theme Songs
Rating:
0/5 (0 votes)

Hard to play? Try these video lessons and learn fast.
                This is the theme from the 1970 Spiderman cartoon! These riffs play in the background.

Spiderman, Spiderman, does what ever spider can
G: -----------------------------------
D: ----------------------------------- (x6)
A: -3-----3---------------------------
E: ---5-4---3-------------------------

Spins a web, any size
G:------------------------------------
D: ----------------------------------- (x2)
A: -7-----7---------------------------
E: ---9-8---7-------------------------

Catches theives just like flies
G: -----------------------------------
D: ----------------------------------- (x2)
A: -3-----3---------------------------
E: ---5-4---3-------------------------

Look out, here comes spiderman!
G: -----------------------------------
D: ----------------------------------- (x2)
A: -9-------9-------------------------
E: ---11-10---9-----------------------


Haven't got the solo yet, but this is the main riff.
            
Hard to play? Try these video lessons and learn fast. | Correct




comments powered by Disqus
↑ Back to top | Tablatures and chords are parodies/interpretations of the original songs. You may use it for private study, scholarship, research or language learning purposes only