» » »

Theme Songs, Speed Stick Commercial Bass tabs (ver.1)

Artists:  A B C D E F G H I J K L M N O P Q R S T U V W X Y Z # 

Speed Stick Commercial Bass tabs (ver.1)

Theme Songs Tabs
 Rating:
4/5 (4 votes)
Speed Stick Commercial lessons Tabs too difficult? Try these video lessons and learn fast
                My friend owns this deoderent and he always sings the song so i tabbed the song for him.

1st part:
G------------------------------------------|
D----7-----5---10--7-----------------------|
A------------------------------------------|
E--5---0-3---8---5-------------------------|
   S P S S P S P S P

2ND PART:
G---7-----5---10---7----------------------|
D-----------------------------------------|
A-5---0-3---8----5------------------------|
E-----------------------------------------|
  S P S S P S P  S P



The deoderant sucks.
            
Submit corrections

comments powered by Disqus
↑ Back to top | Theme Songs Bass for Speed Stick Commercial. Lyrics for acoustic guitar and electric guitar. Tablatures and chords are parodies/interpretations of the original songs. You may use it for private study, scholarship, research or language learning purposes only