» » »

Skip To M' Lou Bass tabs (ver.1)

Artists:  A B C D E F G H I J K L M N O P Q R S T U V W X Y Z # 

Skip To M' Lou Bass tabs (ver.1)

Theme Songs
Rating:
0/5 (0 votes)

Hard to play? Try these video lessons and learn fast.
                
so i know it is 100% right

~ Let Ring for 2 Counts

g---------------------------------------
d----------------2----------------------
a-3-3-----3--3-3----2-2-----2--2-2--5---
e-----5-5---------------3-3-------------

g---------------------------------
d----------------2-----5----------
a-3-3-----3--3-3---2-3---3-2------
e-----5-5--------------------5~-5-
            
Hard to play? Try these video lessons and learn fast. | Correct




comments powered by Disqus
↑ Back to top | Tablatures and chords are parodies/interpretations of the original songs. You may use it for private study, scholarship, research or language learning purposes only