» » »

Simpsons Opening Tune Tabs (ver.1)

Artists:  A B C D E F G H I J K L M N O P Q R S T U V W X Y Z # 

Simpsons Opening Tune Tabs (ver.1)

Theme Songs
Rating:
0/5 (0 votes)
Tabs too difficult? Try these video lessons and learn fast.
                Please be kind it is my first tab!
Please rate it for me!


E----------------------5---------------
B-----------5----7----------8---------
G-----5--------------------------------
D--------------------------------------
A--------------------------------------
E--------------------------------------


E-------------------------------------------
B-----5------------------------------------
G----------5-------------------------------
D-----------------7----4---4---4---5-----
A------------------------------------------
E------------------------------------------

E------------------------------------------------------
B-----------------------------------5----5-----5----5
G---------------------------3-------------------------
D-----4----4----4----5-------------------------------
A------------------------------------------------------
E------------------------------------------------------
            
Tabs too difficult? Try these video lessons and learn fast.


comments powered by Disqus
↑ Back to top | Tablatures and chords are parodies/interpretations of the original songs. You may use it for private study, scholarship, research or language learning purposes only