» » »

Theme Songs, Shin Tenchi - Yamerarenai Yamerarenai Bass tabs (ver.1)

Artists:  A B C D E F G H I J K L M N O P Q R S T U V W X Y Z # 

Shin Tenchi - Yamerarenai Yamerarenai Bass tabs (ver.1)

Theme Songs Tabs
 Rating:
4/5 (4 votes)
Shin Tenchi - Yamerarenai Yamerarenai lessons Tabs too difficult? Try these video lessons and learn fast
                Tenchi in Tokyo
Yamerarenai Yamerarenai
(Drop D Tuning)

Intro
|----------|---------|----------------|------------------------|----------------|
|----------|---------|----------------|------------------------|----------------|
|-0--------|---------|----------------|-0----0---0-0--0--1--2--|----------------|
|----------|---------|-0--0-0-0-2-3-4-|------------------------|-0--0-0-0-2-3-4-|

|----------------|----------------|------------------------|
|----------------|----------------|------------------------|
|-0--0-0-0-4-3-2-|----------------|------------2--2-----2--|
|----------------|-0--0-0-0-2-3-4-|-4----4---4-------4-----|

|------------------------|--------------|
|------------------------|--------0---0-|
|-0----0---0-0--0-----0--|----------0---|
|------------------2-----|-0----0-------|

Verse
||----------------||---------------0--------|---------------------------|
||-0--0-0---0---0-||------------------4--2--|-0---0---2-4---0------0----| x4
||--------0---2---||-0----0---0-0-----------|---------------------------|
||----------------||------------------------|-------------0---0--0---0--|

Chorus
||------------------------|----------------||-------------|
||------------------------|-0--0-0-0-------||-------------|
||-0----0---0-0--0--2--4--|----------------||-0--0-0-0--0-|
||------------------------|----------2-3-4-||-------------|

|---------------2-----2-2-|----------------|------------------------|
|-------------------------|-0--0-0---0---0-|------------------------|
|-0----0---0-0------0-----|--------0---0---|-0----0---0-0--0--2--4--|
|-------------------------|----------------|------------------------|

|----------------|-----------------------|----------------|
|-0--0-0---0---0-|-----------------------|-0--0-0---0---0-|
|--------0---0---|-0----0---0----0----0--|--------0---0---|
|----------------|-------------2---------|----------------|

|------------------------|------------------------|----------------|
|------------------------|------------------------|-0--0-0---0---0-|
|------------2--2-----2--|-0----0---0-0---0--0--0-|--------0---0---|
|-4----4---4-------4-----|------------------------|----------------|

Outro
|-----------|
|--------0--|
|------4----|
|-----------|
            
Submit corrections

comments powered by Disqus
↑ Back to top | Theme Songs Bass for Shin Tenchi - Yamerarenai Yamerarenai. Lyrics for acoustic guitar and electric guitar. Tablatures and chords are parodies/interpretations of the original songs. You may use it for private study, scholarship, research or language learning purposes only