» » »

Theme Songs, Punk Rock Alton Towers Tabs (ver.1)

Artists:  A B C D E F G H I J K L M N O P Q R S T U V W X Y Z # 

Punk Rock Alton Towers Tabs (ver.1)

Theme Songs Tabs
Rating:
0/5 (0 votes)
Punk Rock Alton Towers lessons Tabs too difficult? Try these video lessons and learn fast
                (Theme)
Please rate this tab cus the last one I did was exactly perfect and nobody rated it and they gave 5 stars to a another tab which was as bad as Michael jacksons scrots.
Play the below with lots of flange if not just bend alot



E------------------------------------------------------------------------------------
B------------------------------------------------------------------------------------
G------------------------------------------------------------------------------------
D-----------------------------------------------------------------------------------
A-----2-------2---------2---------2----------1--------1------0--------0-------X2----
E--0-------0--------3--------3-----------2--------2-------1------1-----------------


Then its this with lots of distortion


E---0------------------3-----------------2------------------1------------------------
B---0------------------3-----------------2------------------1------------------------
G---0-----2beats-----4-----2beats----3------2beats-----2-----2beats-----X4----------
D---2------------------5-----------------4-------------------3-----------------------
A---2------------------5-----------------4-------------------3-----------------------
E---0-------------------3-----------------2-------------------1--------------------


That’s all for now this is mine but its not anything im gunna play in my band its just a quick p**s around
            
Submit corrections

comments powered by Disqus
↑ Back to top | Theme Songs Tabs for Punk Rock Alton Towers. Lyrics for acoustic guitar and electric guitar. Tablatures and chords are parodies/interpretations of the original songs. You may use it for private study, scholarship, research or language learning purposes only