» » »

Pulp Fiction Bass tabs (ver.1)

Artists:  A B C D E F G H I J K L M N O P Q R S T U V W X Y Z # 

Pulp Fiction Bass tabs (ver.1)

Theme Songs
Rating:
0/5 (0 votes)

Hard to play? Try these video lessons and learn fast.
                			     Pulp Fiction Theme Song


This is just an interpretation of the song on the bass but its really fun to 
play

* means single notes

Go as fast as you can

G|-----1-2-4-5-8-5-4-----1-2-4-5-8-5-4---------------------------------------|
D|-2-3---------------2-3-----------------------------------------------------|
A|---------------------------------------------------------------------------|
E|---------------------------------------------------------------------------|

G|-5-4-5-4-2-4-2-4-2-1---1-4-2-4-2-1-2-1-2-1---------------------------------|
D|---------------------3-----------------*-*-3-2-----------------------------|
A|-------------------------------------------*-------------------------------|
E|---------------------------------------------------------------------------|

G|-9-10-13-14-16-17-20-17-16--17-16-17-16-14-16-14-16-14-13-10-13------------|
D|---------------------------------------------------------------------------|
A|---------------------------------------------------------------------------|
E|---------------------------------------------------------------------------|

G|-16-14-16-14-13-14-13-14-13-10-9-------------------------------------------|
D|---------------------------------------------------------------------------|
A|---------------------------------------------------------------------------|
E|---------------------------------------------------------------------------|

Trumpet Solo slower for that part
G|---------------------------------------------------------------------------|
D|-7-5-3-----5-3-2-5-3-2-----------------------------------------------------|
A|---------------------------------------------------------------------------|
E|---------------------------------------------------------------------------|

G|---------------------8----8-9---10-9-10-9-10-7-9-7-9-7---------------------|
D|-7-6-7-9-7-9-10-9-10---10------------------------------10-9----------------|
A|---------------------------------------------------------------------------|
E|---------------------------------------------------------------------------|

G|-7----7--------------------------------------------------------------------|
D|---10---10-9-10-9-10-9-7-6-------------------------------------------------|
A|---------------------------------------------------------------------------|
E|---------------------------------------------------------------------------|


So This is basically all the song... listen to it for the right timing and have fun
            
Hard to play? Try these video lessons and learn fast. | Correct




comments powered by Disqus
↑ Back to top | Tablatures and chords are parodies/interpretations of the original songs. You may use it for private study, scholarship, research or language learning purposes only