» » »

Nick Arcade Tabs (ver.1)

Artists:  A B C D E F G H I J K L M N O P Q R S T U V W X Y Z # 

Nick Arcade Tabs (ver.1)

Theme Songs
Rating:
0/5 (0 votes)

Hard to play? Try these video lessons and learn fast.
                (Theme)




E-----------------------
B---------------------------
G--------------------------------
D-----------7------9---------------7----9-----  
A-------9---------------------9-----------
E----7---------------------7--------------


E-------------------------------------
B----------------------------------
G----------------------------------------------------------------------
D------------------5----7-----------------------5------7-----repeat---
A-----------7---------------------------7---------------
E-----5---------------------------5------------
            
Hard to play? Try these video lessons and learn fast. | Correct




comments powered by Disqus
↑ Back to top | Tablatures and chords are parodies/interpretations of the original songs. You may use it for private study, scholarship, research or language learning purposes only