» » »

Theme Songs, New Kids Bass tabs (ver.1)

Artists:  A B C D E F G H I J K L M N O P Q R S T U V W X Y Z # 

New Kids Bass tabs (ver.1)

Theme Songs Tabs
 Rating:
4/5 (4 votes)
New Kids lessons Tabs too difficult? Try these video lessons and learn fast
                Intro
G|---------------------------------------------------------------------------|
D|-5---5---5---2---2-2---2---------------------------------------------------|
A|---5---5-------2-----2-----------------------------------------------------|
E|---------------------------------------------------------------------------|

Verse
G|---------------------------------------------------------------------------|
D|-5-5-5---5-5---5---2-2-2---2-2---------------------------------------------|
A|-------5-----5-----------2-----2-------------------------------------------|
E|---------------------------------------------------------------------------|

Chorus
G|------4-4-7-4-----------------------4-4-7-4--------------------------------|
D|--------------7---2-4-5-5-4-4---------------7------------------------------|
A|--5-5---------------------------5-5------------2-5-5-4---------------------|
E|---------------------------------------------------------------------------|
            
Submit corrections

comments powered by Disqus
↑ Back to top | Theme Songs Bass for New Kids. Lyrics for acoustic guitar and electric guitar. Tablatures and chords are parodies/interpretations of the original songs. You may use it for private study, scholarship, research or language learning purposes only