» » »

Misson Impossible... Bass tabs (ver.1)

Artists:  A B C D E F G H I J K L M N O P Q R S T U V W X Y Z # 

Misson Impossible... Bass tabs (ver.1)

Theme Songs
Rating:
0/5 (0 votes)

Hard to play? Try these video lessons and learn fast.
                (Full)
G-----------------------------

D-----------------------------

A----1-3------------1-2-------

E-3-3---3-3-1-2--3-3---3-3-1-2


The other part is on guitar put u can do it like this

G-11--------12-----13

D---12--------12-----12

A-----12--------12-----12/

E-------------------------

Then this

G-----11-----12------13

D---12-----12------12--

A-12-----12------12----

E----------------------
            
Hard to play? Try these video lessons and learn fast. | Correct




comments powered by Disqus
↑ Back to top | Tablatures and chords are parodies/interpretations of the original songs. You may use it for private study, scholarship, research or language learning purposes only