» » »

Mash Bass tabs (ver.1)

Artists:  A B C D E F G H I J K L M N O P Q R S T U V W X Y Z # 

Mash Bass tabs (ver.1)

Theme Songs
Rating:
0/5 (0 votes)

Hard to play? Try these video lessons and learn fast.
                
  M*A*S*H

G--3--1--0-1--0-1-0----|
D--------------------3-|
A----------------------|
E----------------------

G-0-0---0-----|
D--3---3-3--1-|
A-------------|
E-------------|

G-0-----------------|
D---3--1-3--1-3-1-0-|
A-------------------|
E-------------------|

G-----------------0-|
D--3-1--0-1-0-1-3---|
A-------------------|
E-------------------|
            
Hard to play? Try these video lessons and learn fast. | Correct




comments powered by Disqus
↑ Back to top | Tablatures and chords are parodies/interpretations of the original songs. You may use it for private study, scholarship, research or language learning purposes only