>
 >
Mario Bros. Under Ground Theme

Mario Bros. Under Ground Theme Bass Tabs

Theme Songs - Mario Bros. Under Ground Theme chords, tabs, tablatures, lyrics

Guitar lessons | Add/correct | Request | Top 50 tabs Artists:  A B C D E F G H I J K L M N O P Q R S T U V W X Y Z 0-9

Mario Bros. Under Ground Theme Bass Tabs – Theme Songs

CD, Sheet music, Poster

Do you like Mario Bros. Under Ground Theme? Share with your friends now
Bass Tabs
I tabbed this from the super Nintendo game: Super Mario World.  It may vary a little in some of the games, but this is as close to perfect as I could get it.

Under Ground Theme:

 G|--9--6--7------9--6--7------7--4--5------7--4--5---|
 D|---------------------------------------------------|
 A|-7--4--5------7--4--5------5--2--3------5--2--3----|
 E|---------------------------------------------------|

(Play after every time you do the main part)
 G|---------------------------------------------------|
 D|------------------------0-3-2-0--------------------|
 A|-3-2-1-0--3-2-------0-3---------3-2-0--------------|
 E|--------------1-0-3-------------------3-1-0--------|

It helps a lot if you bust out the good old SuperNes, and listen to the song on super Mario world, or any other game with this theme in it, to get the timings right.

I spent a long time figuring this out.  I think this is as close you can get, but if you find any mistakes, then report them.





Comments


Popular Theme Songs tabs & chords
Banana Bass Tabs
Batman Theme Bass Tabs
Europe Anthem Bass Tabs
Star Spangled Banner 2 Bass Tabs
Trogdor Bass Tabs
We Wish You A Merry Christmas 2 Bass Tabs
When The Saints Go Marching In Bass Tabs
Happy Wok Tabs
Mission Impossible 2 Tabs
Reservoir Dogs Tabs


Song lyrics



↑ Back to top | Tablatures and chords are parodies/interpretations of the original songs. You may use it for private study, scholarship, research or language learning purposes only
© 2014 AZChords.com Contact us | Privacy policy | DMCA | Add/correct tabs | Request tabs | Top 50 tabs