» » »

Londons Crazy Bridge Bass tabs (ver.1)

Artists:  A B C D E F G H I J K L M N O P Q R S T U V W X Y Z # 

Londons Crazy Bridge Bass tabs (ver.1)

Theme Songs
Rating:
0/5 (0 votes)

Hard to play? Try these video lessons and learn fast.
                
this can be played two ways
i tabbed it from trumpet so i know its 100% correct

g-----------------------------------------------------
d-----------------------------------------------------
a-2-3-2-------2--------------2-3-2-------2----2-------
e-------5-3-5---1-3-5--1-3-5-------5-3-5----1---3-0---

or

g-----------------------------------------------------
d-2-3-2-------2--------------2-3-2-------2----2-------
a-------5-3-5---1-3-5--1-3-5-------5-3-5----1---3-0---
e-----------------------------------------------------
            
Hard to play? Try these video lessons and learn fast. | Correct




comments powered by Disqus
↑ Back to top | Tablatures and chords are parodies/interpretations of the original songs. You may use it for private study, scholarship, research or language learning purposes only