» » »

La Bamba And Grease Bass tabs (ver.1)

Artists:  A B C D E F G H I J K L M N O P Q R S T U V W X Y Z # 

La Bamba And Grease Bass tabs (ver.1)

Theme Songs
Rating:
0/5 (0 votes)

Hard to play? Try these video lessons and learn fast.
                These songs are simple.
their basically the same riff over and over and over!
here they are!
La Bamba
|-----0---2-0----------|
|---2---3-----3333-2-0-|
|-3--------------------|
|----------------------|

Thats it! simple aint it?!? 

Grease(summer lovin')
|-----------------------|
|-----0-0-2--2-0-2-0-0--|
|-0-0-------------------|
|-----------------------|

There they are!!! Rate!!
            
Hard to play? Try these video lessons and learn fast. | Correct




comments powered by Disqus
↑ Back to top | Tablatures and chords are parodies/interpretations of the original songs. You may use it for private study, scholarship, research or language learning purposes only