» » »

Jepardy Bass tabs (ver.1)

Artists:  A B C D E F G H I J K L M N O P Q R S T U V W X Y Z # 

Jepardy Bass tabs (ver.1)

Theme Songs
Rating:
0/5 (0 votes)

Hard to play? Try these video lessons and learn fast.
                This is the jeopardy song and it is 100% right. 

#=let ring

G|--0-----0----0-0-4-2-0-----------------------
D|-0-0---0-0--0-0--------4-2-0-----------------
A|----0----------------------------------------
E|---------------------------------------------

G|--0-----0---0--------------------------------
D|-0-0---0-0---2-0-----------------------------
A|----0------------3-2-0-----------------------
E|-----------------------3#--------------------
            
Hard to play? Try these video lessons and learn fast. | Correct




comments powered by Disqus
↑ Back to top | Tablatures and chords are parodies/interpretations of the original songs. You may use it for private study, scholarship, research or language learning purposes only