» » »

Theme Songs, Insomniac With Dave Attell Bass tabs (ver.1)

Artists:  A B C D E F G H I J K L M N O P Q R S T U V W X Y Z # 

Insomniac With Dave Attell Bass tabs (ver.1)

Theme Songs Tabs
Rating:
0/5 (0 votes)
Insomniac With Dave Attell lessons Tabs too difficult? Try these video lessons and learn fast
                Tuning - Standard

Insomniac Theme Song

G--------------------------------------------------------
D--------------------------------------------------------
A--9--12-11-----9--------------9--12-14-12-11------------
E------------13----10--9-8-9-----------------------------

G-----------------9-11--11---9-7--------------------------
D--9-8-9--11-12-------------------11-8-9-11-9-------------
A---------------------------------------------------------
E---------------------------------------------------------

-This is a funny little song to play, enjoy.............
            

comments powered by Disqus
↑ Back to top | Theme Songs Bass for Insomniac With Dave Attell. Lyrics for acoustic guitar and electric guitar. Tablatures and chords are parodies/interpretations of the original songs. You may use it for private study, scholarship, research or language learning purposes only