» » »

Insomniac Bass tabs (ver.1)

Artists:  A B C D E F G H I J K L M N O P Q R S T U V W X Y Z # 

Insomniac Bass tabs (ver.1)

Theme Songs
Rating:
0/5 (0 votes)

Hard to play? Try these video lessons and learn fast.
                (Theme)
G--------------------------------------------------------
D--------------------------------------------------------
A--9--12-11-----9--------------9--12h14p12-11------------
E------------13----9--8-7-8------------------------------

G--------------------------------------------------------
D----------------7-9-11--11---9-7-------------------------
A--9-8-9--11-12--------------------------11-8h9h11-9-----
E--------------------------------------------------------

Listening to the show I think its repeated twice. Cool 
song, funny if you know the lyrics to it.
            
Hard to play? Try these video lessons and learn fast. | Correct




comments powered by Disqus
↑ Back to top | Tablatures and chords are parodies/interpretations of the original songs. You may use it for private study, scholarship, research or language learning purposes only