» » »

I Love Lucy Bass tabs (ver.1)

Artists:  A B C D E F G H I J K L M N O P Q R S T U V W X Y Z # 

I Love Lucy Bass tabs (ver.1)

Theme Songs
Rating:
0/5 (0 votes)

Hard to play? Try these video lessons and learn fast.
                (Theme)
If you do not agree with this tab please don't bother sending any type of complaint to me.
Just rate.

~= let ring

-----------------------------
-----------------12--10-9~---
----9--10--12-99-------------
-----------------------------


-----------------------------
-----------------14--12-11---
----9--10--12-99-------------
-----------------------------


-----------------------------
---14-15~-16-15~-14-15-17~---
-----------------------------
-----------------------------


Thats it, have fun!
            
Hard to play? Try these video lessons and learn fast. | Correct




comments powered by Disqus
↑ Back to top | Tablatures and chords are parodies/interpretations of the original songs. You may use it for private study, scholarship, research or language learning purposes only