» » »

Here Comes The Bride Bass tabs (ver.1)

Artists:  A B C D E F G H I J K L M N O P Q R S T U V W X Y Z # 

Here Comes The Bride Bass tabs (ver.1)

Theme Songs
Rating:
0/5 (0 votes)

Hard to play? Try these video lessons and learn fast.
                
~ Let Ring

i edited this b/c it was in the wrong key.
its 100% right now!

g--------------------------------------------
d--------------------------------------------
a-------------1-----------3-6-3---------1~---
e-0-4-4-4~--0---2-4~--0-4-------4-4-3-4------

g--------------------------------------------
d--------------------------------------------
a-------------1-----------3-6-3-----1-3------
e-0-4-4-4~--0---2-4~--0-4-------4-1-----4~---
            
Hard to play? Try these video lessons and learn fast. | Correct




comments powered by Disqus
↑ Back to top | Tablatures and chords are parodies/interpretations of the original songs. You may use it for private study, scholarship, research or language learning purposes only