» » »

Harry Potter - Hedwigs Tabs (ver.1)

Artists:  A B C D E F G H I J K L M N O P Q R S T U V W X Y Z # 

Harry Potter - Hedwigs Tabs (ver.1)

Theme Songs
Rating:
0/5 (0 votes)

Hard to play? Try these video lessons and learn fast.
                (Theme)
HARRY POTTER ~ Hedwig’s theme

NOTE: all credit goes to the original song writter, John Williams.

I have written this tab by ear.  To further help you with this, listen to the original piece.

E----0--3--2--0--7--5--2--0--3--2--0--1---------
B-2---------------------------------------2--0--
G-----------------------------------------------
D-----------------------------------------------
A-----------------------------------------------
E-----------------------------------------------

E-----0--3--2--0--7--10--9--8--5--8--7--6--2--3--0
B--2----------------------------------------------
G-------------------------------------------------
D-------------------------------------------------
A-------------------------------------------------
E-------------------------------------------------

E--3----3----3-----------2--3--------0--1----
B-----2----2----3--2--1--------2--1-------2--
G--------------------------------------------
D--------------------------------------------
A--------------------------------------------
E--------------------------------------------

E--3----3----3--10--9--8--5--8--7--6--2--3--0---
B-----2----2------------------------------------
G-----------------------------------------------
D-----------------------------------------------
A-----------------------------------------------
E-----------------------------------------------
            
Hard to play? Try these video lessons and learn fast. | Correct




comments powered by Disqus
↑ Back to top | Tablatures and chords are parodies/interpretations of the original songs. You may use it for private study, scholarship, research or language learning purposes only