» » »

Theme Songs, Goldeneye Bass tabs (ver.1)

Artists:  A B C D E F G H I J K L M N O P Q R S T U V W X Y Z # 

Goldeneye Bass tabs (ver.1)

Theme Songs Tabs
 Rating:
4/5 (4 votes)
Goldeneye lessons Tabs too difficult? Try these video lessons and learn fast
                
Intro

G:--------|--------|
D:--------|--------|
A:2-3-4-3-|2-3-4-3-|
E:--------|--------|

G:--------|--------|-----------|
D:--------|--------|-----------|    x2
A:--------|--------|-----------|
E:0-2-2-2-|0-0-0-0-|3-3-3-2-2-2|

G:--------|--------|--------|----------|
D:--------|--------|--------|-1-0------|
A:--------|--------|--------|----2-1-2-|
E:0-2-2-2-|0-0-0-0-|3-2-1-0-|----------|

G:----4-3---------|-----|
D:2-5----5-4-5-5-4|--2--|
A:----------------|-2-4-|
E:----------------|-----|

G:----4-3---------|-----|
D:2-5----5-4-5-5-4|--1-2|
A:----------------|-2---|
E:----------------|-----|
            
Submit corrections

comments powered by Disqus
↑ Back to top | Theme Songs Bass for Goldeneye. Lyrics for acoustic guitar and electric guitar. Tablatures and chords are parodies/interpretations of the original songs. You may use it for private study, scholarship, research or language learning purposes only