» » »

Theme Songs, Friends Bass tabs (ver.1)

Artists:  A B C D E F G H I J K L M N O P Q R S T U V W X Y Z # 

Friends Bass tabs (ver.1)

Theme Songs Tabs
 Rating:
4/5 (4 votes)
Friends lessons Tabs too difficult? Try these video lessons and learn fast
                (Theme)
Friends Theme song 

Intro (under guitar)
G---------------------------------------
D---------------------------------------
A---0----------0--------0---------0---
E---------------------------------------

Verse – just root notes (this is just the basic bass line – add in more if you want)
G---------------------------------------------------------------0------------------0------------------------
D--------------------------------------------------------------------0------------------0--------------------
A--0--------0-------0--------------0------0-------0-----4-------------0----0------------------------------
E-----------------------------3---------------------------------------------------------------0-0000000---
                   							         This is the clapping bit

Chorus
G------------------------------------------------------------------------------------------------
D--------------------0-0-0-0--------------------------------------------------------------------
A----0-0-0-0-----------------------------------------------------------------------------------(x3)
E---------------------------------------0-0-0-0-----0-0-0-0-----------------------------------

Hold G (E-string 3rd fret) as outro
            
Submit corrections

comments powered by Disqus
↑ Back to top | Theme Songs Bass for Friends. Lyrics for acoustic guitar and electric guitar. Tablatures and chords are parodies/interpretations of the original songs. You may use it for private study, scholarship, research or language learning purposes only