» » »

Theme Songs, Fraggle Rock Bass tabs (ver.1)

Artists:  A B C D E F G H I J K L M N O P Q R S T U V W X Y Z # 

Fraggle Rock Bass tabs (ver.1)

Theme Songs Tabs
 Rating:
4/5 (4 votes)
Fraggle Rock lessons Tabs too difficult? Try these video lessons and learn fast
                
Intro:
G--------------|
D*------------*| 14x
A*-3-3-3-1/2--*|
E--------------|

            
G---------||---------------------------------|
D---------||---------3-3-3-3-------------5---|
A-3-3-3-3-||-3-3-3-3---------5-5-5-5---------|
E---------||-------------------------3-------|

Verse
G-----------------|------------5----|---------|
D-----3-3-5-5-----|-----3-3-5-------|---------|
A-3-3---------3-3-|-3-3-----------3-|--3------|
E-----------------|-----------------|---------|

G-----------------|------------5----||----5----|
D*----3-3-5-5-----|-----3-3-5------*||-5-------|
A*3-3---------3-3-|-3-3-----------3*||-------3-|
E-----------------|-----------------||---------|

G----------------------------------|--------------------------234--|
D------------------3-3-3-3-3-3-3-3-|----------------5-5-5-5-55-----|
A--3-3-3-3-3-3-3-3-----------------|5-5-5-5-5-5-5-5----------------|
E----------------------------------|-------------------------------|

G-----------------|------------5----|
D-----3-3-5-5-----|-----3-3-5-------|
A-3-3---------3-3-|-3-3-----------3-|
E-----------------|-----------------|

BreakDown:
G--------------|
D*------------*| 6x 
A*-3-3-3-1/2--*|
E--------------|

G-------------|------------|-----------|-----2-3-4-|
D--3-3-3-1/2--|-3-3-3-1/2--|-5-5-5-3/4-|-5-5-------|
A-------------|------------|-----------|-----------|
E-------------|------------|-----------|-----------|

G---5-------7-----|------------|
D-------3-------5-|-(1 measure-|
A-3-------5-------|----rest)---|
E-----1-------3---|------------|

Verse
G-----------------|------------5----|
D-----3-3-5-5-----|-----3-3-5-------| 2x
A-3-3---------3-3-|-3-3-----------3-|
E-----------------|-----------------|

G|----5----3| 
D|-5--------| 
A|-------3--|          
E|----------|
            
Submit corrections

comments powered by Disqus
↑ Back to top | Theme Songs Bass for Fraggle Rock. Lyrics for acoustic guitar and electric guitar. Tablatures and chords are parodies/interpretations of the original songs. You may use it for private study, scholarship, research or language learning purposes only