» » »

Formula One Bass tabs (ver.1)

Artists:  A B C D E F G H I J K L M N O P Q R S T U V W X Y Z # 

Formula One Bass tabs (ver.1)

Theme Songs
Rating:
0/5 (0 votes)

Hard to play? Try these video lessons and learn fast.
                G |-------------------------
D |-------------------------
A |--0--0-2-3-2-0---0-2-----
E |---------------3------0--

G |-------------------------
D |------------------------2
A |--0--0-2-3-2-0---0-2-----
E |---------------3------0--

G |--2-0-2--2-0-------------
D |-------------------------
A |-------------0-2-3-------
E |-------------------3-----

G |--2-0-2--2-0-------------
D |-------------------2-----
A |-------------0-2-3-------
E |-------------------------

thats all of it - i think - please rate and enjoy playing!
            
Hard to play? Try these video lessons and learn fast. | Correct




comments powered by Disqus
↑ Back to top | Tablatures and chords are parodies/interpretations of the original songs. You may use it for private study, scholarship, research or language learning purposes only