» » »

Theme Songs, Final Fantasy - Chocobo Bass tabs (ver.1)

Artists:  A B C D E F G H I J K L M N O P Q R S T U V W X Y Z # 

Final Fantasy - Chocobo Bass tabs (ver.1)

Theme Songs Tabs
 Rating:
4/5 (4 votes)
Final Fantasy - Chocobo lessons Tabs too difficult? Try these video lessons and learn fast
                (Theme)
“Chocobo theme song”

I just tabbed this from memory of how it sounded, so this isn’t probably completely correct

Riff 1  (X2)
G ---7-----4-----------7---4-------4---0---4----------------------------------------
D --------------5--2------------5--------------------7---5-----5h7p5----3---5-------
A ----------------------------------------------------------------------------------
E ----------------------------------------------------------------------------------

G -------------------4-5-7-----
D --7---5---5h7----------------
A -----------------------------
E -----------------------------

on the 2nd time, Riff 1 ends with:
G -------------------5-7-8-----
D --7---5---5h7----------------
A -----------------------------
E -----------------------------


Riff 2
G -9---5---------5-9-7----12---7-------4-5----------------5-4---4h5p4---2-4---
D --------7-4-7-------------------------------7-4-0-4-7-----------------------
A ----------------------------------------------------------------------------
E ----------------------------------------------------------------------------


Riff 3
G -9---5-------5-9-7----12---7----4-5---5h7p5---4-5----0-2---2h4---5-7-9---11---12-
D -------7-4-7---------------------------------------------------------------------
A ----------------------------------------------------------------------------------
E ----------------------------------------------------------------------------------
            
Submit corrections

comments powered by Disqus
↑ Back to top | Theme Songs Bass for Final Fantasy - Chocobo. Lyrics for acoustic guitar and electric guitar. Tablatures and chords are parodies/interpretations of the original songs. You may use it for private study, scholarship, research or language learning purposes only