» » »

Theme Songs, Family Guy Tabs (ver.1)

Artists:  A B C D E F G H I J K L M N O P Q R S T U V W X Y Z # 

Family Guy Tabs (ver.1)

Theme Songs Tabs
 Rating:
4/5 (4 votes)
Family Guy lessons Tabs too difficult? Try these video lessons and learn fast
                (Intro)
-1/9-7-9|-5-7-5-8-----------------5-6-5-8-9---------------------9-10-12-9-7---
--------|----------7h9-7h9-7h9-10---------------------------------------------
--------|-----------------------------------2h3-3h4-5-3-7-5-8-6---------------
--------|---------------------------------------------------------------------
--------|---------------------------------------------------------------------
--------|---------------------------------------------------------------------
                                                                              

-5-15|-11-9-11-9-12-10-9-7-|-7-5-7-5-7-8|x2|-5-3-5-3-5-6-------|--12-13-15----
-----|---------------------|------------|--|-------------6-7-8b|--------------
-----|---------------------|------------|--|-------------------|--------------
-----|---------------------|------------|--|-------------------|--------------
-----|---------------------|------------|--|-------------------|--------------
-----|---------------------|------------|--|-------------------|--------------
                                                                              

-16-17------------------------------------------------------------------------
            
Submit corrections

comments powered by Disqus
↑ Back to top | Theme Songs Tabs for Family Guy. Lyrics for acoustic guitar and electric guitar. Tablatures and chords are parodies/interpretations of the original songs. You may use it for private study, scholarship, research or language learning purposes only