» » »

Theme Songs, Extreme Happy Birthday Tabs (ver.1)

Artists:  A B C D E F G H I J K L M N O P Q R S T U V W X Y Z # 

Extreme Happy Birthday Tabs (ver.1)

Theme Songs Tabs
 Rating:
4/5 (4 votes)
Extreme Happy Birthday lessons Tabs too difficult? Try these video lessons and learn fast
                Tuning: EADGBE
This song I took a regular lick and made some power chords.
Very Good Song For Beginners


 E -----------------------------
 B -----------------------------
 G -----------------------------
 D 3-3-5-3-8-7---3-3-5-3-10-8---
 A 3-3-5-3-8-7---3-3-5-3-10-8---
 E 1-1-3-1-6-5---1-1-3-1-8--6---


 E ----------------------------------1-
 B --------------------------------3---
 G ----10-7-3-2----8-8-7-3-5-----3-----
 D 3-3-10-7-3-2-5--8-8-7-3-5---3-------
 A 3-3-8--5-1-0-5--6-6-5-1-3-1---------
 E 1-1----------3----------------------
            
Submit corrections

comments powered by Disqus
↑ Back to top | Theme Songs Tabs for Extreme Happy Birthday. Lyrics for acoustic guitar and electric guitar. Tablatures and chords are parodies/interpretations of the original songs. You may use it for private study, scholarship, research or language learning purposes only