» » »

Dr. Phil Tabs (ver.1)

Artists:  A B C D E F G H I J K L M N O P Q R S T U V W X Y Z # 

Dr. Phil Tabs (ver.1)

Theme Songs
Rating:
0/5 (0 votes)

Hard to play? Try these video lessons and learn fast.
                (Theme)
Standard tuning.

e---------------------------------------------------------------------------------
B---------------------------------------------------------------------------------
G--5-4-0-5-4-0-7--5-4-0-5-4-0-7--5-4-0-5-4-0-7------------------------------------
D---------------------------------------------------------------------------------
A-----------------------------------------------10-9-5-10-9-5-12--10-9-5-10-9-5-12
E---------------------------------------------------------------------------------

Hard rock version.
Drop D, 1/2 step
6-Db    3-Gb
5-Ab    2-Bb
4-Db    1-eb

eb-----------------------------------------------------------------------------
Bb-----------------------------------------------------------------------------
Gb-----------------------------------------------------------------------------
Db-5-4-0-5-4-0-7---------------------------------------------------------------
Ab-5-4-0-5-4-0-7---------------------------------------------------------------
Db-5-4-0-5-4-0-7---5-4-0-5-4-0-7-7-7-7-7-7-7-7-5-4-0-5-4-0-7-7-7-7-7-7-7-7-----

I think i over did this. I just wanted the regular dr.phil theme but I had to add
more because it wasn't long enough.

WATERS WILL BE BACK.-linkinparkduluthmn
            
Hard to play? Try these video lessons and learn fast. | Correct




comments powered by Disqus
↑ Back to top | Tablatures and chords are parodies/interpretations of the original songs. You may use it for private study, scholarship, research or language learning purposes only