» » »

D-Generation-X Bass tabs (ver.1)

Artists:  A B C D E F G H I J K L M N O P Q R S T U V W X Y Z # 

D-Generation-X Bass tabs (ver.1)

Theme Songs
Rating:
0/5 (0 votes)

Hard to play? Try these video lessons and learn fast.
                intro

g-----------------------------------
d-00-0--0-0-------------------------
a-----3----3-5555-----3-55----------
e-----------------33-3-----2-33-22--
chorus:
      
      
g-----------------------------------
d-----------------------------------
a---7-6-7-2-3---------7-6-7-3-2-----
e-0-----------2-3-2-0-----------3---
            
Hard to play? Try these video lessons and learn fast. | Correct




comments powered by Disqus
↑ Back to top | Tablatures and chords are parodies/interpretations of the original songs. You may use it for private study, scholarship, research or language learning purposes only