» » »

Circus Bass tabs (ver.1)

Artists:  A B C D E F G H I J K L M N O P Q R S T U V W X Y Z # 

Circus Bass tabs (ver.1)

Theme Songs
Rating:
0/5 (0 votes)

Hard to play? Try these video lessons and learn fast.
                G[-8-7--6-7-6-5-----------------------------]
D[--------------9-8-7-8--9-8-7-8-7-6--------]
A[-----------------------------------9-8-7-8]
E[------------------------------------------]

G[--------------------------------------]
D[-8-------8--------------------7-6-5-4-]
A[---7-6-7---7-6-7------4-5-6-7---------]
E[------------------5-7-----------------] 
G[-8-7--6-7-6-5-----------------------------]
D[--------------9-8-7-8--9-8-7-8-7-6--------]
A[-----------------------------------9-8-7-8]
E[------------------------------------------]

G[--------------------------------------]
D[-8-------8--------------------7-6-5-4-]
A[---7-6-7---7-6-7------4-5-6-7---------]
E[------------------5-7-----------------]
            
Hard to play? Try these video lessons and learn fast. | Correct




comments powered by Disqus
↑ Back to top | Tablatures and chords are parodies/interpretations of the original songs. You may use it for private study, scholarship, research or language learning purposes only