» » »

Charlie Brown Bass tabs (ver.1)

Artists:  A B C D E F G H I J K L M N O P Q R S T U V W X Y Z # 

Charlie Brown Bass tabs (ver.1)

Theme Songs
Rating:
0/5 (0 votes)

Hard to play? Try these video lessons and learn fast.
                (Theme)
Low Part
G--------------
D------5--------
A----5-----5-7---
E--3-----3------

Higher Part (Tapped)
G--12-14-16-16-14-12-14-12--12-14-16-16-------
D---------------------------------------------
A---------------------------------------------
E---------------------------------------------

Break it Down Now!
G--5-5-5-7---12----12
D--5-5-5-7---12h14-14
A--3-3-3-5-----------
E--------------------
this sounds right but if u want to try to do a better one, download Stu Hamm's bass solo and figure it out
            
Hard to play? Try these video lessons and learn fast. | Correct




comments powered by Disqus
↑ Back to top | Tablatures and chords are parodies/interpretations of the original songs. You may use it for private study, scholarship, research or language learning purposes only