» » »

Theme Songs, Can-Can Bass tabs (ver.1)

Artists:  A B C D E F G H I J K L M N O P Q R S T U V W X Y Z # 

Can-Can Bass tabs (ver.1)

Theme Songs Tabs
Rating:
0/5 (0 votes)
Can-Can lessons Tabs too difficult? Try these video lessons and learn fast
                Every-body knows the can-can, even if you dont know it by name its actually a pretty easy song to play


G:-------------------------------3-2---------|
D:----1---3-3-3-5---2-----2---------5-3-2----|
A:1--2-5-3--------5--2-2-2--5-2-1--------5-3-|
E:-------------------------------------------|

G:------------------------------------------|
D:----1---3-3-3-5---2-----2-------3---------|
A:1--2-5-3--------5--2-2-2--5-2-1---2-5--1-1|
E:------------------------------------------|

thanks and give me a good rating
            

comments powered by Disqus
↑ Back to top | Theme Songs Bass for Can-Can. Lyrics for acoustic guitar and electric guitar. Tablatures and chords are parodies/interpretations of the original songs. You may use it for private study, scholarship, research or language learning purposes only