» » »

Theme Songs, Buffy Bass tabs (ver.1)

Artists:  A B C D E F G H I J K L M N O P Q R S T U V W X Y Z # 

Buffy Bass tabs (ver.1)

Theme Songs Tabs
Rating:
0/5 (0 votes)
Buffy lessons Tabs too difficult? Try these video lessons and learn fast
                Buffy The Vampire Slayer

G|-----------------------------------------|
D|-----------------------------------------|
A|--7777777777777--9-10--5555555555555555--|
E|-----------------------------------------|

G|-----------------------------------------|
D|-----------------------------------------|
A|--55555555555555--7-9--5555555555555555--|
E|-----------------------------------------| (x 2)


Second riff 

G|-----------------------------------------|
D|--7777777777777--9-7--5555555555555555---|
A|-----------------------------------------|
E|-----------------------------------------|

G|---------------------|
D|--5444444444444444---|
A|---------------------|
E|---------------------|


Third riff (just a little bit slower than the other 2 riffs)

G|---------------7-9--------------7-9------|
D|--9-9-9-9-9-9-------9-9-9-9-9-9----------|
A|-----------------------------------------|
E|-----------------------------------------|

G|---------------4-7----------------------------------|
D|--7-7-7-7-7-7-------7-7-7-7-7-7-7-7-8-8-8-8-8-8-8-8-|
A|----------------------------------------------------|
E|----------------------------------------------------|


Ending riff

G|---------------------|
D|---------------------|
A|--5~--5~--5~---------|
E|----------0~---------|
            
Submit corrections

comments powered by Disqus
↑ Back to top | Theme Songs Bass for Buffy. Lyrics for acoustic guitar and electric guitar. Tablatures and chords are parodies/interpretations of the original songs. You may use it for private study, scholarship, research or language learning purposes only