» » »

Blue Heelers Bass tabs (ver.1)

Artists:  A B C D E F G H I J K L M N O P Q R S T U V W X Y Z # 

Blue Heelers Bass tabs (ver.1)

Theme Songs
Rating:
0/5 (0 votes)

Hard to play? Try these video lessons and learn fast.
                (Theme)
Blue Heelers Theme Song (Some aussie show so
most of you guys won’t know what this is!)

Just root notes 

Intro part
G----------------------------------------------------------------------------
D---0---0---0---0----------------------0---0---------------0----0--------
A----------------------3---------------------------3------------------------
E----------------------------3-----1---------------------1------------------

B Section
G---------------------------------------------------------------------------------
D-------------0----------0-----------0-------------------0---0--------------
A---2---3--------2---3-----2---3--------------------0---------------------
E----------------------------------------------1---3-----------------------

Intro x1
B section x2
            
Hard to play? Try these video lessons and learn fast. | Correct




comments powered by Disqus
↑ Back to top | Tablatures and chords are parodies/interpretations of the original songs. You may use it for private study, scholarship, research or language learning purposes only