>
 >
Blackadder

Blackadder Bass Tabs

Theme Songs - Blackadder chords, tabs, tablatures, lyrics

Guitar lessons | Add/correct | Request | Top 50 tabs Artists:  A B C D E F G H I J K L M N O P Q R S T U V W X Y Z 0-9

Blackadder Bass Tabs – Theme Songs

CD, Sheet music, Poster

Do you like Blackadder? Share with your friends now
Bass Tabs
Theme Songs  Blackadder tune

This tune sounds cool any where on the fret board

|----5-------5-----5---911--7-10---7-10--9-7-5-4---|
|-5-------5-----5-----------------------------------|
|---------------------------------------------------|
|---------------------------------------------------|

Chorus

|-----------------------------------------------------------2-5--|
|-5-5-----5-5-----5--3--2-0-----5---5-5-----5-5---------2-3------|
|------7-------5-------------3-----------7-------3--3-5----------|
|----------------------------------------------------------------|





Comments


Popular Theme Songs tabs & chords
A Team Bass Tabs
Friends Theme Bass Tabs
Here Comes The Bride Bass Tabs
Mexican Hat Dance 2 Bass Tabs
Pop Goes The Weasel 1 Bass Tabs
Star Wars Theme 1 Bass Tabs
Wallace And Gromit Bass Tabs
Lotr: Merry&Pips Drinking Song Tabs
Upa Upa Upapa Tabs
Veggie Tales Tabs


Song lyrics



↑ Back to top | Tablatures and chords are parodies/interpretations of the original songs. You may use it for private study, scholarship, research or language learning purposes only
© 2014 AZChords.com Contact us | Privacy policy | DMCA | Add/correct tabs | Request tabs | Top 50 tabs