>
 >
Bey Blade Theme

Bey Blade Theme Guitar Tabs

Theme Songs - Bey Blade Theme chords, tabs, tablatures, lyrics

Guitar lessons | Add/correct | Request | Top 50 tabs Artists:  A B C D E F G H I J K L M N O P Q R S T U V W X Y Z 0-9

Bey Blade Theme Guitar Tabs – Theme Songs

CD, Sheet music, Poster

Do you like Bey Blade Theme? Share with your friends now
Tabs
"Bey Blade Theme"

  /   down slide
 pm   palm muted
  ^   harmonic


    Intro/MAIN RIFF
 e|-------------------55555---------------------33333---|
 B|-------------------55555---------------------33333---|
 G|-------------------00000----4/5-55--4/5-55---00000---| x2
 D|---4/5-55--4/5-55-----------4/5-55--4/5-55-----------| 
 A|---4/5-55--4/5-55-----------2/3-33--2/3-33-----------|
 E|---2/3-33--2/3-33------------------------------------|

                                            
     PRE-VERSE
  e|-------------------|
  B|-------------------|
  G|-------------------|
  D|--66----88----9----|
  A|--66----88----9----|
  E|--44----66----7----|

 
     VERSE
  e|--------------------------|
  b|--------------------------|
  g|--------------------------|
  D|---4444-4444-4444-4444----|------------|
  A|---4444-4444-4444-4444----|            |
  E|---2222-2222-2222-2222----|            |
pm     ..   ..   ..   ..                   |
                                           |-- x2
  e|--------------------------|            |
  B|--------------------------|            |
  G|---4444-4444-4444-4444----|            |
  D|---4444-4444-4444-4444----|------------|
  A|---2222-2222-2222-2222----|
  E|--------------------------|
pm     ..   ..   ..   ..


     CHORUS
  e|------------------------|
  B|------------------------|
  G|------------------------|
  D|---13------11------9----| x2
  A|---13------11------9----|
  E|---11-------9------7----|


     MAIN RIFF



     VERSE 2
  e|--------------------------|
  B|--------------------------|
  G|--------------------------|
  D|---4444-4444-4444-4444----|
  A|---4444-4444-4444-4444----|            
  E|---2222-2222-2222-2222----|            
pm     ..   ..   ..   ..                   
                                           
  e|--------------------------|            
  B|--------------------------|           
  G|---4444-4444-4444-4444----|           
  D|---4444-4444-4444-4444----|
  A|---2222-2222-2222-2222----|
  E|--------------------------|
pm     ..   ..   ..   ..    

  e|--------------------------|
  B|--------------------------|
  G|--------------------------|
  D|---6666-6666-6666-6666----|
  A|---6666-6666-6666-6666----|            
  E|---4444-4444-4444-4444----|            
pm     ..   ..   ..   ..                   
                                           
  e|--------------------------|            
  B|--------------------------|           
  G|---6666-6666-6666-6666----|           
  D|---6666-6666-6666-6666----|
  A|---4444-4444-4444-4444----|
  E|--------------------------|
pm     ..   ..   ..   ..   


     CHORUS 
  e|------------------------|
  B|------------------------|
  g|------------------------|
  D|---13------11------9----| x2
  A|---13------11------9----|
  E|---11-------9------7----|


     PRE-SOLO
  e|-----------------|
  b|-----------------|
  G|-----------------|
  D|--6----8----9----|
  A|--6----8----9----|
  E|--4----6----7----|


     SOLO
  e|--------------------------------------------------|
  B|--------------------------------------------------|
  G|-----------------------0^-------------------------|
  D|---4-4--------------------------------------------| x2
  A|---4-4------/---7---9------7---9---7--------------|
  E|--------------------------------------------------|


     OUTRO
  e|---------------------|
  b|---------------------|
  G|--------2-44-2-4-2---|
  D|---4-4--2-44-2-4-2---| x2
  A|---4-4--0-22-0-2-0---|
  E|---2-2---------------|



   Ends on:
  e|----------------------|
  b|----------------------|
  G|----------------------|
  D|---4-------------4----| 
  A|---4-------------4----|
  E|---2-------------2----|





Comments


Popular Theme Songs tabs & chords
Banana Bass Tabs
Beverly Hills Cop Theme Song Bass Tabs
James Bond 007 Theme Bass Tabs
James Bond Theme Tune Bass Tabs
Jaws 1 Bass Tabs
Old F1 Theme Tune Fleetwood Mac Bass Tabs
Charlie\S Angels Tabs
Simpsons Tabs
Toejam And Earl Tabs
Zelda - Gerudo Valley Correct Tabs


Song lyrics



↑ Back to top | Tablatures and chords are parodies/interpretations of the original songs. You may use it for private study, scholarship, research or language learning purposes only
© 2014 AZChords.com Contact us | Privacy policy | DMCA | Add/correct tabs | Request tabs | Top 50 tabs