» » »

Theme Songs, Beverly Hills Cop Theme Tune Bass tabs (ver.1)

Artists:  A B C D E F G H I J K L M N O P Q R S T U V W X Y Z # 

Beverly Hills Cop Theme Tune Bass tabs (ver.1)

Theme Songs Tabs
 Rating:
4/5 (4 votes)
Beverly Hills Cop Theme Tune lessons Tabs too difficult? Try these video lessons and learn fast
                


*Hold Note

G:------------------6-----7-6-----6-11-------------------------
D:----7-----9-----------------7----------------7---------------
A:--9---9-9---9-7-9---9-9-------9------9-7-7-----9-------------
E:-------------------------------------------9-----------------

G:------------------6-----7-6-----6-11-------------------------
D:----7-----9-----------------7----------------7---------------
A:--9---9-9---9-7-9---9-9-------9------9-7-7-----9*------------
E:-------------------------------------------9-----------------


Repeat this for as long as you want or until your totally bored.
pretty easy but needs a bit of practice to get used to.
            
Submit corrections

comments powered by Disqus
↑ Back to top | Theme Songs Bass for Beverly Hills Cop Theme Tune. Lyrics for acoustic guitar and electric guitar. Tablatures and chords are parodies/interpretations of the original songs. You may use it for private study, scholarship, research or language learning purposes only