» » »

Theme Songs, Beverly Hills Cop Tabs (ver.1)

Artists:  A B C D E F G H I J K L M N O P Q R S T U V W X Y Z # 

Beverly Hills Cop Tabs (ver.1)

Theme Songs Tabs
 Rating:
4/5 (4 votes)
Beverly Hills Cop lessons Tabs too difficult? Try these video lessons and learn fast
1
                (Theme)
e|-------------------------|-------0--------1--0-----|-
B|-------1--------3--------|----------------------1--|-
G|--2---------2-2----2--0--|--2---------2-2----------|-
D|-------------------------|-------------------------|-
A|-------------------------|-------------------------|-
E|-------------------------|-------------------------|-


                                                 
-|-----0--5------------------|
-|---------------------0-----|
-|--2--------2--0-0-------2--|
-|------------------2--------| x2
-|---------------------------|
-|---------------------------|


                                                      
-|-----0--0--0--3-3-3--2--0--|----0--0--0--3-3-2--0----|-
-|---------------------------|-------------------------|-
-|---------------------------|-------------------------|-
-|---------------------------|-------------------------|-
-|---------------------------|-------------------------|-
-|---------------------------|-------------------------|-


                                                   
-|------------------------|-----0--0-----0---------|
-|----1--1--1--1--3--3----|--3--------3------------|
-|------------------------|------------------------|
-|------------------------|------------------------| x2
-|------------------------|------------------------|
-|------------------------|------------------------|


                                                     
-|--------------------------|-------0--------1--0-----|-
-|--------1--------3--------|----------------------1--|-
-|---2---------2-2----2--0--|--2---------2-2----------|-
-|--------------------------|-------------------------|-
-|--------------------------|-------------------------|-
-|--------------------------|-------------------------|-


                                                 
-|-----0--5------------------|-------------------|
-|---------------------0-----|-------------------|
-|--2--------2--0-0-------2--|-------------------|
-|------------------2--------|-------------------| x2
-|---------------------------|-------------------|
-|---------------------------|-------------------|
            
Submit corrections

comments powered by Disqus
↑ Back to top | Theme Songs Tabs for Beverly Hills Cop. Lyrics for acoustic guitar and electric guitar. 1 Tablatures and chords are parodies/interpretations of the original songs. You may use it for private study, scholarship, research or language learning purposes only