» » »

Beach Beat Tabs (ver.1)

Artists:  A B C D E F G H I J K L M N O P Q R S T U V W X Y Z # 

Beach Beat Tabs (ver.1)

Theme Songs
Rating:
0/5 (0 votes)

Hard to play? Try these video lessons and learn fast.
                Tuning e B G D A E

this is a really cool beat but its really hard to play because of you have to keep 
moving to different strings really fast but once you get it its pretty tight.This is one of my first tabs so please rate


e---------------
B------2-1--3-3-
G---------------
D-0-------------
A----------0-3--
E---------------

e---------------
B------2-1--3-3-
G---------------
D-0-------------
A----------0-3--
E---------------

e---------------
B------2-1--3-3-
G---------------
D-0-------------
A----------0-3--
E--------------- just keep repeating this
            
Hard to play? Try these video lessons and learn fast. | Correct




comments powered by Disqus
↑ Back to top | Tablatures and chords are parodies/interpretations of the original songs. You may use it for private study, scholarship, research or language learning purposes only