» » »

Theme Songs, Australian National Anthem Bass tabs (ver.1)

Artists:  A B C D E F G H I J K L M N O P Q R S T U V W X Y Z # 

Australian National Anthem Bass tabs (ver.1)

Theme Songs Tabs
Rating:
0/5 (0 votes)
Australian National Anthem lessons Tabs too difficult? Try these video lessons and learn fast
                E|---------------------------------------------------------------------------------
A|---5----5-2-5------------------------------------------------------------------
D|------5--------5---5-5---9--7--5--4--5--7-----------------------------------
G|---------------------------------------------------------------------------------

E|-----------------------------------------------------------------------------------
A|---5---5-2-5---------------------------------------------------------------------
D|-----5---------5--5-5---9-7-5-4-2-0------------------------------------------
G|-----------------------------------------------------------------------------------

E|-----------------------------------------------------------------------------------
A|--5-7--9-10--7-5--2-2---5-7-10-15-14-12-----------------------------------
D|-----------------------------------------------------------------------------------
G|-----------------------------------------------------------------------------------

E|-----------------------------------------------------------------------------------
A|--5-7--9-10--7-5--10-10----15-17--10-15--9-10---------------------------       X2
D|-----------------------------------------------------------------------------------
G|-----------------------------------------------------------------------------------

I think this is pretty good, please don’t give it a cr*p rating. You can also play it on electric with the top strings.
            
Submit corrections

comments powered by Disqus
↑ Back to top | Theme Songs Bass for Australian National Anthem. Lyrics for acoustic guitar and electric guitar. Tablatures and chords are parodies/interpretations of the original songs. You may use it for private study, scholarship, research or language learning purposes only