» » »

A Team Bass tabs (ver.1)

Artists:  A B C D E F G H I J K L M N O P Q R S T U V W X Y Z # 

A Team Bass tabs (ver.1)

Theme Songs
Rating:
0/5 (0 votes)

Hard to play? Try these video lessons and learn fast.
                A Team Theme

Part 1
                                         
G --------------------------------------
D --------------------------------------
A --2--2--0--2--0--2--0--0--7--5--------
E --------------------------------------


Part 2

G --------------------------------------
D --------------------------------------
A --2--2--0--2--0-----------------------
E -----------------3--3--3--5-----------


Part 3

G --------------------------------------
D --------------------------------------
A --2--2--0--2--0-----------------------
E -----------------3--3--3--2-----------

Part 1
part 2
Part 1
Part 3
            
Hard to play? Try these video lessons and learn fast. | Correct




comments powered by Disqus
↑ Back to top | Tablatures and chords are parodies/interpretations of the original songs. You may use it for private study, scholarship, research or language learning purposes only