» » »

Another Termina Bass tabs (ver.1)

Artists:  A B C D E F G H I J K L M N O P Q R S T U V W X Y Z # 

Another Termina Bass tabs (ver.1)

Theme Songs
Rating:
0/5 (0 votes)

Hard to play? Try these video lessons and learn fast.
                g: -----------------------------------------------------
d: -----------------------------------------------------
a: 0--0/7/5--5-5/4-5/4-0--0/7/5--5-5-5/4/0-
e: -----------------------------------------------------

g: ----------------------------------------------------------------------------
d: ----------------------------------------------------------------------------
a: 0--00-0-00-0-00--0/5-0/5-0/5-0-00-0-00-0-00--5/4-5/4-0
e: ----------------------------------------------------------------------------  2x

secs. 30-43

g: -----------2----------------------------------
d: 2-2-4-4---4-0-0--------------------------
a: ---------------------4-2-0---0/5-0/5-0/5
e: -----------------------------------------------

g --------------------------2-4-4-4---2-4-4-4--2-4-4-4---------------
d: 2-2-2-4-4-5-5-2-2--------------------------------------2-0---------
a: --------------------------------------------------------------------4-2-0
e: ---------------------------------------------------------------------------

g: -----------------------------------
d: -----------------------------------
a: 0-----0---5-7----0----0---5-7
e: -----------------------------------

g: ------------------------------------------------------------4-2-4-2---------
d: -----------------------------------------------------------------------2-0---
a: -------------------3-0----0-0-4/5-0-0-4-4-4/5-55------------------0
e: 0/1-0/1-0/1-3------------------------------------------------------------
            
Hard to play? Try these video lessons and learn fast. | Correct




comments powered by Disqus
↑ Back to top | Tablatures and chords are parodies/interpretations of the original songs. You may use it for private study, scholarship, research or language learning purposes only