» » »

Andy Griffith Bass tabs (ver.1)

Artists:  A B C D E F G H I J K L M N O P Q R S T U V W X Y Z # 

Andy Griffith Bass tabs (ver.1)

Theme Songs
Rating:
0/5 (0 votes)

Hard to play? Try these video lessons and learn fast.
                G---------------------------------------------------------------------
D---------------9------7/6-----------9------7/6---------------6-------
A----------7-------------------7------------------7--------7-------7/9
E---7--7-----------------------------------------------9--------------

G---------------------------------------------------------------------
D---------------9------7/6-----------9------7/6-----------------------
A----------7-------------------7------------------7----9---6/7--------
E---7--7--------------------------------------------------------------

G---------------------------------------------------------------------
D-----11-9-11---9-----11-9-11---9------11-9-11---9-------------------9
A--------------------------------------------------------9---9-9-9----
E---------------------------------------------------------------------

G---------------------------------------------------------------------
D---------------9------7/6-----------9------7/6---------------6-------
A----------7-------------------7------------------7--------7-------7/9
E---7--7-----------------------------------------------9--------------

G---------------------------------------------------------------------
D---------------9------7/6-----------9------7/6-----------------------
A----------7-------------------7------------------7----9---6/7--------
E---7--7-------------------------------------------------------------0
            
Hard to play? Try these video lessons and learn fast. | Correct




comments powered by Disqus
↑ Back to top | Tablatures and chords are parodies/interpretations of the original songs. You may use it for private study, scholarship, research or language learning purposes only